ISO-10303-21;
HEADER;
FILE_DESCRIPTION (( 'STEP AP203' ),
    '1' );
FILE_NAME ('Q-AZHWP-10-488-M.STEP',
    '2020-12-22T09:05:56',
    ( '' ),
    ( '' ),
    'SwSTEP 2.0',
    'SolidWorks 2020',
    '' );
FILE_SCHEMA (( 'CONFIG_CONTROL_DESIGN' ));
ENDSEC;

DATA;
#1 = PERSON_AND_ORGANIZATION_ROLE ( 'classification_officer' ) ;
#2 = CARTESIAN_POINT ( 'NONE',  ( -1.250000000000000222, 6.123233995736767268E-16, -5.000000000000000888 ) ) ;
#3 = CALENDAR_DATE ( 2020, 22, 12 ) ;
#4 = DIRECTION ( 'NONE',  ( 0.000000000000000000, 0.000000000000000000, 1.000000000000000000 ) ) ;
#5 = AXIS2_PLACEMENT_3D ( 'NONE', #319, #10, #90 ) ;
#6 = COORDINATED_UNIVERSAL_TIME_OFFSET ( 8, 0, .AHEAD. ) ;
#7 = ORIENTED_EDGE ( 'NONE', *, *, #217, .T. ) ;
#8 = LINE ( 'NONE', #120, #91 ) ;
#9 = CC_DESIGN_PERSON_AND_ORGANIZATION_ASSIGNMENT ( #83, #320, ( #159 ) ) ;
#10 = DIRECTION ( 'NONE',  ( -1.000000000000000000, -0.000000000000000000, -0.000000000000000000 ) ) ;
#11 = DIRECTION ( 'NONE',  ( 1.000000000000000000, 0.000000000000000000, 0.000000000000000000 ) ) ;
#12 = FACE_BOUND ( 'NONE', #48, .T. ) ;
#13 = EDGE_CURVE ( 'NONE', #147, #160, #143, .T. ) ;
#14 = APPLICATION_CONTEXT ( 'configuration controlled 3d designs of mechanical parts and assemblies' ) ;
#15 = EDGE_LOOP ( 'NONE', ( #17, #97, #283, #258 ) ) ;
#16 = CIRCLE ( 'NONE', #38, 5.000000000000000000 ) ;
#17 = ORIENTED_EDGE ( 'NONE', *, *, #267, .F. ) ;
#18 = MANIFOLD_SOLID_BREP ( 'Ðý×', #75 ) ;
#19 = VERTEX_POINT ( 'NONE', #290 ) ;
#20 = EDGE_CURVE ( 'NONE', #202, #279, #107, .T. ) ;
#21 = CARTESIAN_POINT ( 'NONE',  ( -1.250000000000000222, 0.000000000000000000, 0.000000000000000000 ) ) ;
#22 = ORIENTED_EDGE ( 'NONE', *, *, #329, .F. ) ;
#23 = VERTEX_POINT ( 'NONE', #79 ) ;
#24 = DIRECTION ( 'NONE',  ( 0.000000000000000000, 0.000000000000000000, 1.000000000000000000 ) ) ;
#25 = CALENDAR_DATE ( 2020, 22, 12 ) ;
#26 = DIRECTION ( 'NONE',  ( 1.000000000000000000, 0.000000000000000000, 0.000000000000000000 ) ) ;
#27 = DATE_TIME_ROLE ( 'creation_date' ) ;
#28 = DIRECTION ( 'NONE',  ( -1.000000000000000000, -0.000000000000000000, -0.000000000000000000 ) ) ;
#29 = SECURITY_CLASSIFICATION ( '', '', #236 ) ;
#30 = MECHANICAL_CONTEXT ( 'NONE', #14, 'mechanical' ) ;
#31 = PRODUCT_DEFINITION ( 'UNKNOWN', '', #159, #47 ) ;
#32 = DIRECTION ( 'NONE',  ( 0.000000000000000000, 0.000000000000000000, 1.000000000000000000 ) ) ;
#33 = APPLICATION_PROTOCOL_DEFINITION ( 'international standard', 'config_control_design', 1994, #14 ) ;
#34 = DIRECTION ( 'NONE',  ( 0.000000000000000000, 0.000000000000000000, 1.000000000000000000 ) ) ;
#35 = ADVANCED_FACE ( 'NONE', ( #241 ), #260, .T. ) ;
#36 = ORIENTED_EDGE ( 'NONE', *, *, #106, .T. ) ;
#37 = FACE_OUTER_BOUND ( 'NONE', #138, .T. ) ;
#38 = AXIS2_PLACEMENT_3D ( 'NONE', #325, #248, #322 ) ;
#39 = ADVANCED_FACE ( 'NONE', ( #242 ), #74, .F. ) ;
#40 = CARTESIAN_POINT ( 'NONE',  ( -3.000000000000000000, 0.000000000000000000, 0.000000000000000000 ) ) ;
#41 = CARTESIAN_POINT ( 'NONE',  ( 3.000000000000000000, 1.555301434917138433E-15, -12.69999999999999929 ) ) ;
#42 = AXIS2_PLACEMENT_3D ( 'NONE', #168, #270, #224 ) ;
#43 = CARTESIAN_POINT ( 'NONE',  ( 3.000000000000000000, 0.000000000000000000, 12.69999999999999929 ) ) ;
#44 = ORIENTED_EDGE ( 'NONE', *, *, #263, .T. ) ;
#45 = CC_DESIGN_APPROVAL ( #323, ( #159 ) ) ;
#46 = ORIENTED_EDGE ( 'NONE', *, *, #267, .T. ) ;
#47 = DESIGN_CONTEXT ( 'detailed design', #88, 'design' ) ;
#48 = EDGE_LOOP ( 'NONE', ( #36, #68 ) ) ;
#49 = ORIENTED_EDGE ( 'NONE', *, *, #172, .F. ) ;
#50 = ADVANCED_BREP_SHAPE_REPRESENTATION ( 'Q-AZHWP-10-488-M', ( #18, #303 ), #196 ) ;
#51 = CIRCLE ( 'NONE', #298, 5.000000000000001776 ) ;
#52 = CYLINDRICAL_SURFACE ( 'NONE', #103, 5.000000000000000888 ) ;
#53 = FACE_OUTER_BOUND ( 'NONE', #101, .T. ) ;
#54 = PERSON_AND_ORGANIZATION ( #191, #326 ) ;
#55 = FACE_OUTER_BOUND ( 'NONE', #124, .T. ) ;
#56 = AXIS2_PLACEMENT_3D ( 'NONE', #314, #183, #4 ) ;
#57 = CYLINDRICAL_SURFACE ( 'NONE', #126, 5.000000000000000888 ) ;
#58 = CARTESIAN_POINT ( 'NONE',  ( 0.000000000000000000, 0.000000000000000000, 0.000000000000000000 ) ) ;
#59 = ORIENTED_EDGE ( 'NONE', *, *, #20, .F. ) ;
#60 = DIRECTION ( 'NONE',  ( -1.000000000000000000, -0.000000000000000000, -0.000000000000000000 ) ) ;
#61 = CARTESIAN_POINT ( 'NONE',  ( 3.000000000000000000, 6.123233995736768255E-16, -5.000000000000001776 ) ) ;
#62 = AXIS2_PLACEMENT_3D ( 'NONE', #139, #245, #118 ) ;
#63 = CARTESIAN_POINT ( 'NONE',  ( -3.000000000000000000, 0.000000000000000000, 12.69999999999999929 ) ) ;
#64 = ADVANCED_FACE ( 'NONE', ( #53 ), #57, .F. ) ;
#65 = CARTESIAN_POINT ( 'NONE',  ( -3.000000000000000000, 0.000000000000000000, 5.000000000000000000 ) ) ;
#66 = ORIENTED_EDGE ( 'NONE', *, *, #300, .F. ) ;
#67 = CC_DESIGN_PERSON_AND_ORGANIZATION_ASSIGNMENT ( #194, #1, ( #29 ) ) ;
#68 = ORIENTED_EDGE ( 'NONE', *, *, #184, .T. ) ;
#69 = EDGE_LOOP ( 'NONE', ( #178, #46, #251, #96 ) ) ;
#70 = LOCAL_TIME ( 17, 5, 56.00000000000000000, #264 ) ;
#71 = CARTESIAN_POINT ( 'NONE',  ( -1.614212418857619014, 0.000000000000000000, 5.000000000000000888 ) ) ;
#72 = ORIENTED_EDGE ( 'NONE', *, *, #203, .F. ) ;
#73 = LINE ( 'NONE', #71, #285 ) ;
#74 = CYLINDRICAL_SURFACE ( 'NONE', #56, 5.000000000000000888 ) ;
#75 = CLOSED_SHELL ( 'NONE', ( #235, #64, #123, #78, #39, #244, #176, #35, #247, #151 ) ) ;
#76 = LOCAL_TIME ( 17, 5, 56.00000000000000000, #80 ) ;
#77 = DIRECTION ( 'NONE',  ( -1.000000000000000000, -0.000000000000000000, -0.000000000000000000 ) ) ;
#78 = ADVANCED_FACE ( 'NONE', ( #55 ), #161, .F. ) ;
#79 = CARTESIAN_POINT ( 'NONE',  ( -1.250000000000000222, 0.000000000000000000, 5.000000000000000888 ) ) ;
#80 = COORDINATED_UNIVERSAL_TIME_OFFSET ( 8, 0, .AHEAD. ) ;
#81 = EDGE_CURVE ( 'NONE', #305, #254, #155, .T. ) ;
#82 = DIRECTION ( 'NONE',  ( -1.000000000000000000, -0.000000000000000000, -0.000000000000000000 ) ) ;
#83 = PERSON_AND_ORGANIZATION ( #191, #326 ) ;
#84 = APPROVAL_PERSON_ORGANIZATION ( #54, #186, #212 ) ;
#85 = PLANE ( 'NONE',  #165 ) ;
#86 = PERSON_AND_ORGANIZATION ( #191, #326 ) ;
#87 = CARTESIAN_POINT ( 'NONE',  ( -3.000000000000000000, 5.000000000000000000, 0.000000000000000000 ) ) ;
#88 = APPLICATION_CONTEXT ( 'configuration controlled 3d designs of mechanical parts and assemblies' ) ;
#89 = CARTESIAN_POINT ( 'NONE',  ( -3.000000000000000000, 6.123233995736766282E-16, -5.000000000000000000 ) ) ;
#90 = DIRECTION ( 'NONE',  ( 0.000000000000000000, 0.000000000000000000, 1.000000000000000000 ) ) ;
#91 = VECTOR ( 'NONE', #302, 1000.000000000000000 ) ;
#92 = CARTESIAN_POINT ( 'NONE',  ( -1.614212418857619014, 6.123233995736767268E-16, -5.000000000000000888 ) ) ;
#93 = EDGE_CURVE ( 'NONE', #254, #279, #277, .T. ) ;
#94 = AXIS2_PLACEMENT_3D ( 'NONE', #40, #119, #163 ) ;
#95 = ORIENTED_EDGE ( 'NONE', *, *, #217, .F. ) ;
#96 = ORIENTED_EDGE ( 'NONE', *, *, #256, .F. ) ;
#97 = ORIENTED_EDGE ( 'NONE', *, *, #106, .F. ) ;
#98 = CIRCLE ( 'NONE', #94, 5.000000000000000000 ) ;
#99 = ORIENTED_EDGE ( 'NONE', *, *, #329, .T. ) ;
#100 = CC_DESIGN_PERSON_AND_ORGANIZATION_ASSIGNMENT ( #86, #239, ( #31 ) ) ;
#101 = EDGE_LOOP ( 'NONE', ( #127, #121, #7, #66 ) ) ;
#102 = DIRECTION ( 'NONE',  ( 0.000000000000000000, 0.000000000000000000, 1.000000000000000000 ) ) ;
#103 = AXIS2_PLACEMENT_3D ( 'NONE', #180, #153, #109 ) ;
#104 = CARTESIAN_POINT ( 'NONE',  ( -1.614212418857619014, 0.000000000000000000, 0.000000000000000000 ) ) ;
#105 = DATE_AND_TIME ( #288, #76 ) ;
#106 = EDGE_CURVE ( 'NONE', #19, #281, #51, .T. ) ;
#107 = LINE ( 'NONE', #292, #164 ) ;
#108 = DATE_AND_TIME ( #3, #70 ) ;
#109 = DIRECTION ( 'NONE',  ( 0.000000000000000000, 0.000000000000000000, 1.000000000000000000 ) ) ;
#110 = PERSON_AND_ORGANIZATION ( #191, #326 ) ;
#111 = EDGE_CURVE ( 'NONE', #125, #273, #132, .T. ) ;
#112 = AXIS2_PLACEMENT_3D ( 'NONE', #128, #266, #308 ) ;
#113 = AXIS2_PLACEMENT_3D ( 'NONE', #21, #149, #331 ) ;
#114 = DIRECTION ( 'NONE',  ( -1.000000000000000000, -0.000000000000000000, -0.000000000000000000 ) ) ;
#115 = APPROVAL_DATE_TIME ( #210, #323 ) ;
#116 = ORIENTED_EDGE ( 'NONE', *, *, #240, .T. ) ;
#117 = DIRECTION ( 'NONE',  ( -1.000000000000000000, -0.000000000000000000, -0.000000000000000000 ) ) ;
#118 = DIRECTION ( 'NONE',  ( -0.000000000000000000, 0.000000000000000000, 1.000000000000000000 ) ) ;
#119 = DIRECTION ( 'NONE',  ( -1.000000000000000000, -0.000000000000000000, -0.000000000000000000 ) ) ;
#120 = CARTESIAN_POINT ( 'NONE',  ( -1.614212418857619014, 0.000000000000000000, 5.000000000000000888 ) ) ;
#121 = ORIENTED_EDGE ( 'NONE', *, *, #111, .T. ) ;
#122 = AXIS2_PLACEMENT_3D ( 'NONE', #87, #11, #218 ) ;
#123 = ADVANCED_FACE ( 'NONE', ( #135 ), #52, .F. ) ;
#124 = EDGE_LOOP ( 'NONE', ( #171, #150 ) ) ;
#125 = VERTEX_POINT ( 'NONE', #2 ) ;
#126 = AXIS2_PLACEMENT_3D ( 'NONE', #104, #309, #102 ) ;
#127 = ORIENTED_EDGE ( 'NONE', *, *, #297, .T. ) ;
#128 = CARTESIAN_POINT ( 'NONE',  ( 1.250000000000000222, 5.000000000000000000, 0.000000000000000000 ) ) ;
#129 = PERSON_AND_ORGANIZATION ( #191, #326 ) ;
#130 = CARTESIAN_POINT ( 'NONE',  ( 1.250000000000000444, 6.123233995736766282E-16, -5.000000000000000000 ) ) ;
#131 = PERSON_AND_ORGANIZATION ( #191, #326 ) ;
#132 = LINE ( 'NONE', #238, #199 ) ;
#133 = CALENDAR_DATE ( 2020, 22, 12 ) ;
#134 = CARTESIAN_POINT ( 'NONE',  ( 3.000000000000000000, 0.000000000000000000, 0.000000000000000000 ) ) ;
#135 = FACE_OUTER_BOUND ( 'NONE', #69, .T. ) ;
#136 = APPROVAL_STATUS ( 'not_yet_approved' ) ;
#137 = AXIS2_PLACEMENT_3D ( 'NONE', #182, #77, #34 ) ;
#138 = EDGE_LOOP ( 'NONE', ( #231, #49 ) ) ;
#139 = CARTESIAN_POINT ( 'NONE',  ( 3.000000000000000000, 12.69999999999999929, 0.000000000000000000 ) ) ;
#140 = DIRECTION ( 'NONE',  ( -1.000000000000000000, -0.000000000000000000, -0.000000000000000000 ) ) ;
#141 = FACE_OUTER_BOUND ( 'NONE', #304, .T. ) ;
#142 = CARTESIAN_POINT ( 'NONE',  ( 3.000000000000000000, 0.000000000000000000, 0.000000000000000000 ) ) ;
#143 = CIRCLE ( 'NONE', #222, 5.000000000000000000 ) ;
#144 = EDGE_LOOP ( 'NONE', ( #59, #205, #278, #282 ) ) ;
#145 = AXIS2_PLACEMENT_3D ( 'NONE', #229, #200, #204 ) ;
#146 = ORIENTED_EDGE ( 'NONE', *, *, #81, .F. ) ;
#147 = VERTEX_POINT ( 'NONE', #130 ) ;
#148 = EDGE_CURVE ( 'NONE', #160, #147, #310, .T. ) ;
#149 = DIRECTION ( 'NONE',  ( 1.000000000000000000, 0.000000000000000000, 0.000000000000000000 ) ) ;
#150 = ORIENTED_EDGE ( 'NONE', *, *, #13, .F. ) ;
#151 = ADVANCED_FACE ( 'NONE', ( #334 ), #85, .F. ) ;
#152 = CIRCLE ( 'NONE', #253, 12.69999999999999929 ) ;
#153 = DIRECTION ( 'NONE',  ( -1.000000000000000000, -0.000000000000000000, -0.000000000000000000 ) ) ;
#154 = APPROVAL_STATUS ( 'not_yet_approved' ) ;
#155 = LINE ( 'NONE', #157, #272 ) ;
#156 = APPLICATION_PROTOCOL_DEFINITION ( 'international standard', 'config_control_design', 1994, #88 ) ;
#157 = CARTESIAN_POINT ( 'NONE',  ( -1.614212418857619014, 0.000000000000000000, 12.69999999999999929 ) ) ;
#158 = CALENDAR_DATE ( 2020, 22, 12 ) ;
#159 = PRODUCT_DEFINITION_FORMATION_WITH_SPECIFIED_SOURCE ( 'ANY', '', #289, .NOT_KNOWN. ) ;
#160 = VERTEX_POINT ( 'NONE', #166 ) ;
#161 = PLANE ( 'NONE',  #112 ) ;
#162 = DIRECTION ( 'NONE',  ( 1.000000000000000000, 0.000000000000000000, 0.000000000000000000 ) ) ;
#163 = DIRECTION ( 'NONE',  ( 0.000000000000000000, 0.000000000000000000, 1.000000000000000000 ) ) ;
#164 = VECTOR ( 'NONE', #268, 1000.000000000000000 ) ;
#165 = AXIS2_PLACEMENT_3D ( 'NONE', #286, #26, #249 ) ;
#166 = CARTESIAN_POINT ( 'NONE',  ( 1.250000000000000444, 0.000000000000000000, 5.000000000000000000 ) ) ;
#167 = CC_DESIGN_PERSON_AND_ORGANIZATION_ASSIGNMENT ( #110, #243, ( #289 ) ) ;
#168 = CARTESIAN_POINT ( 'NONE',  ( -1.614212418857619014, 0.000000000000000000, 0.000000000000000000 ) ) ;
#169 = FACE_OUTER_BOUND ( 'NONE', #201, .T. ) ;
#170 = AXIS2_PLACEMENT_3D ( 'NONE', #275, #117, #220 ) ;
#171 = ORIENTED_EDGE ( 'NONE', *, *, #148, .F. ) ;
#172 = EDGE_CURVE ( 'NONE', #202, #305, #152, .T. ) ;
#173 =( NAMED_UNIT ( * ) SI_UNIT ( $, .STERADIAN. ) SOLID_ANGLE_UNIT ( ) );
#174 = ORIENTED_EDGE ( 'NONE', *, *, #203, .T. ) ;
#175 = CC_DESIGN_APPROVAL ( #186, ( #31 ) ) ;
#176 = ADVANCED_FACE ( 'NONE', ( #221, #169 ), #197, .F. ) ;
#177 = EDGE_LOOP ( 'NONE', ( #72, #95 ) ) ;
#178 = ORIENTED_EDGE ( 'NONE', *, *, #184, .F. ) ;
#179 = CC_DESIGN_DATE_AND_TIME_ASSIGNMENT ( #190, #27, ( #31 ) ) ;
#180 = CARTESIAN_POINT ( 'NONE',  ( -1.614212418857619014, 0.000000000000000000, 0.000000000000000000 ) ) ;
#181 = APPROVAL_PERSON_ORGANIZATION ( #129, #323, #335 ) ;
#182 = CARTESIAN_POINT ( 'NONE',  ( -3.000000000000000000, 0.000000000000000000, 0.000000000000000000 ) ) ;
#183 = DIRECTION ( 'NONE',  ( -1.000000000000000000, -0.000000000000000000, -0.000000000000000000 ) ) ;
#184 = EDGE_CURVE ( 'NONE', #281, #19, #317, .T. ) ;
#185 = AXIS2_PLACEMENT_3D ( 'NONE', #189, #262, #213 ) ;
#186 = APPROVAL ( #216, 'UNSPECIFIED' ) ;
#187 = AXIS2_PLACEMENT_3D ( 'NONE', #276, #60, #193 ) ;
#188 = LOCAL_TIME ( 17, 5, 56.00000000000000000, #293 ) ;
#189 = CARTESIAN_POINT ( 'NONE',  ( -1.614212418857619014, 0.000000000000000000, 0.000000000000000000 ) ) ;
#190 = DATE_AND_TIME ( #25, #188 ) ;
#191 = PERSON ( 'UNSPECIFIED', 'UNSPECIFIED', 'UNSPECIFIED', ('UNSPECIFIED'), ('UNSPECIFIED'), ('UNSPECIFIED') ) ;
#192 = PRODUCT_DEFINITION_SHAPE ( 'NONE', 'NONE',  #31 ) ;
#193 = DIRECTION ( 'NONE',  ( 0.000000000000000000, 0.000000000000000000, 1.000000000000000000 ) ) ;
#194 = PERSON_AND_ORGANIZATION ( #191, #326 ) ;
#195 = LINE ( 'NONE', #92, #232 ) ;
#196 =( GEOMETRIC_REPRESENTATION_CONTEXT ( 3 ) GLOBAL_UNCERTAINTY_ASSIGNED_CONTEXT ( ( #312 ) ) GLOBAL_UNIT_ASSIGNED_CONTEXT ( ( #252, #226, #173 ) ) REPRESENTATION_CONTEXT ( 'NONE', 'WORKASPACE' ) );
#197 = PLANE ( 'NONE',  #122 ) ;
#198 = CARTESIAN_POINT ( 'NONE',  ( -3.000000000000000000, 0.000000000000000000, 0.000000000000000000 ) ) ;
#199 = VECTOR ( 'NONE', #284, 1000.000000000000000 ) ;
#200 = DIRECTION ( 'NONE',  ( 1.000000000000000000, 0.000000000000000000, 0.000000000000000000 ) ) ;
#201 = EDGE_LOOP ( 'NONE', ( #333, #116 ) ) ;
#202 = VERTEX_POINT ( 'NONE', #41 ) ;
#203 = EDGE_CURVE ( 'NONE', #233, #273, #98, .T. ) ;
#204 = DIRECTION ( 'NONE',  ( 0.000000000000000000, 0.000000000000000000, -1.000000000000000000 ) ) ;
#205 = ORIENTED_EDGE ( 'NONE', *, *, #172, .T. ) ;
#206 = EDGE_LOOP ( 'NONE', ( #327, #99, #328, #174 ) ) ;
#207 = DIRECTION ( 'NONE',  ( -1.000000000000000000, -0.000000000000000000, -0.000000000000000000 ) ) ;
#208 = APPROVAL ( #154, 'UNSPECIFIED' ) ;
#209 = CARTESIAN_POINT ( 'NONE',  ( 1.250000000000000444, 0.000000000000000000, 0.000000000000000000 ) ) ;
#210 = DATE_AND_TIME ( #133, #227 ) ;
#211 = AXIS2_PLACEMENT_3D ( 'NONE', #198, #140, #294 ) ;
#212 = APPROVAL_ROLE ( '' ) ;
#213 = DIRECTION ( 'NONE',  ( 0.000000000000000000, 0.000000000000000000, 1.000000000000000000 ) ) ;
#214 = APPROVAL_DATE_TIME ( #108, #208 ) ;
#215 = CARTESIAN_POINT ( 'NONE',  ( 1.250000000000000444, 0.000000000000000000, 0.000000000000000000 ) ) ;
#216 = APPROVAL_STATUS ( 'not_yet_approved' ) ;
#217 = EDGE_CURVE ( 'NONE', #273, #233, #16, .T. ) ;
#218 = DIRECTION ( 'NONE',  ( 0.000000000000000000, 0.000000000000000000, -1.000000000000000000 ) ) ;
#219 = PERSON_AND_ORGANIZATION_ROLE ( 'creator' ) ;
#220 = DIRECTION ( 'NONE',  ( 0.000000000000000000, 0.000000000000000000, 1.000000000000000000 ) ) ;
#221 = FACE_BOUND ( 'NONE', #177, .T. ) ;
#222 = AXIS2_PLACEMENT_3D ( 'NONE', #209, #82, #24 ) ;
#223 = APPROVAL_PERSON_ORGANIZATION ( #311, #208, #313 ) ;
#224 = DIRECTION ( 'NONE',  ( 0.000000000000000000, 0.000000000000000000, 1.000000000000000000 ) ) ;
#225 = CYLINDRICAL_SURFACE ( 'NONE', #42, 5.000000000000000888 ) ;
#226 =( NAMED_UNIT ( * ) PLANE_ANGLE_UNIT ( ) SI_UNIT ( $, .RADIAN. ) );
#227 = LOCAL_TIME ( 17, 5, 56.00000000000000000, #6 ) ;
#228 = ORIENTED_EDGE ( 'NONE', *, *, #93, .F. ) ;
#229 = CARTESIAN_POINT ( 'NONE',  ( -1.250000000000000222, 0.000000000000000000, 0.000000000000000000 ) ) ;
#230 = ORIENTED_EDGE ( 'NONE', *, *, #20, .T. ) ;
#231 = ORIENTED_EDGE ( 'NONE', *, *, #263, .F. ) ;
#232 = VECTOR ( 'NONE', #321, 1000.000000000000000 ) ;
#233 = VERTEX_POINT ( 'NONE', #65 ) ;
#234 = DIRECTION ( 'NONE',  ( 0.000000000000000000, 0.000000000000000000, 1.000000000000000000 ) ) ;
#235 = ADVANCED_FACE ( 'NONE', ( #141 ), #299, .T. ) ;
#236 = SECURITY_CLASSIFICATION_LEVEL ( 'unclassified' ) ;
#237 = CIRCLE ( 'NONE', #170, 12.69999999999999929 ) ;
#238 = CARTESIAN_POINT ( 'NONE',  ( -1.614212418857619014, 6.123233995736767268E-16, -5.000000000000000888 ) ) ;
#239 = PERSON_AND_ORGANIZATION_ROLE ( 'creator' ) ;
#240 = EDGE_CURVE ( 'NONE', #279, #254, #330, .T. ) ;
#241 = FACE_OUTER_BOUND ( 'NONE', #144, .T. ) ;
#242 = FACE_OUTER_BOUND ( 'NONE', #15, .T. ) ;
#243 = PERSON_AND_ORGANIZATION_ROLE ( 'design_owner' ) ;
#244 = ADVANCED_FACE ( 'NONE', ( #301 ), #225, .F. ) ;
#245 = DIRECTION ( 'NONE',  ( -1.000000000000000000, 0.000000000000000000, -0.000000000000000000 ) ) ;
#246 = PLANE ( 'NONE',  #62 ) ;
#247 = ADVANCED_FACE ( 'NONE', ( #37, #12 ), #246, .F. ) ;
#248 = DIRECTION ( 'NONE',  ( -1.000000000000000000, -0.000000000000000000, -0.000000000000000000 ) ) ;
#249 = DIRECTION ( 'NONE',  ( 0.000000000000000000, 0.000000000000000000, -1.000000000000000000 ) ) ;
#250 = PRODUCT_RELATED_PRODUCT_CATEGORY ( 'detail', '', ( #289 ) ) ;
#251 = ORIENTED_EDGE ( 'NONE', *, *, #13, .T. ) ;
#252 =( LENGTH_UNIT ( ) NAMED_UNIT ( * ) SI_UNIT ( .MILLI., .METRE. ) );
#253 = AXIS2_PLACEMENT_3D ( 'NONE', #142, #114, #274 ) ;
#254 = VERTEX_POINT ( 'NONE', #63 ) ;
#255 = EDGE_LOOP ( 'NONE', ( #306, #22 ) ) ;
#256 = EDGE_CURVE ( 'NONE', #19, #160, #8, .T. ) ;
#257 = DIRECTION ( 'NONE',  ( -1.000000000000000000, -0.000000000000000000, -0.000000000000000000 ) ) ;
#258 = ORIENTED_EDGE ( 'NONE', *, *, #148, .T. ) ;
#259 = CIRCLE ( 'NONE', #145, 5.000000000000000888 ) ;
#260 = CYLINDRICAL_SURFACE ( 'NONE', #185, 12.69999999999999929 ) ;
#261 = COORDINATED_UNIVERSAL_TIME_OFFSET ( 8, 0, .AHEAD. ) ;
#262 = DIRECTION ( 'NONE',  ( -1.000000000000000000, -0.000000000000000000, -0.000000000000000000 ) ) ;
#263 = EDGE_CURVE ( 'NONE', #305, #202, #237, .T. ) ;
#264 = COORDINATED_UNIVERSAL_TIME_OFFSET ( 8, 0, .AHEAD. ) ;
#265 = CC_DESIGN_SECURITY_CLASSIFICATION ( #29, ( #159 ) ) ;
#266 = DIRECTION ( 'NONE',  ( -1.000000000000000000, 0.000000000000000000, -0.000000000000000000 ) ) ;
#267 = EDGE_CURVE ( 'NONE', #281, #147, #195, .T. ) ;
#268 = DIRECTION ( 'NONE',  ( -1.000000000000000000, -0.000000000000000000, -0.000000000000000000 ) ) ;
#269 = APPROVAL_DATE_TIME ( #318, #186 ) ;
#270 = DIRECTION ( 'NONE',  ( -1.000000000000000000, -0.000000000000000000, -0.000000000000000000 ) ) ;
#271 = CC_DESIGN_DATE_AND_TIME_ASSIGNMENT ( #105, #295, ( #29 ) ) ;
#272 = VECTOR ( 'NONE', #28, 1000.000000000000000 ) ;
#273 = VERTEX_POINT ( 'NONE', #89 ) ;
#274 = DIRECTION ( 'NONE',  ( 0.000000000000000000, 0.000000000000000000, 1.000000000000000000 ) ) ;
#275 = CARTESIAN_POINT ( 'NONE',  ( 3.000000000000000000, 0.000000000000000000, 0.000000000000000000 ) ) ;
#276 = CARTESIAN_POINT ( 'NONE',  ( -1.614212418857619014, 0.000000000000000000, 0.000000000000000000 ) ) ;
#277 = CIRCLE ( 'NONE', #137, 12.69999999999999929 ) ;
#278 = ORIENTED_EDGE ( 'NONE', *, *, #81, .T. ) ;
#279 = VERTEX_POINT ( 'NONE', #296 ) ;
#280 = CIRCLE ( 'NONE', #113, 5.000000000000000888 ) ;
#281 = VERTEX_POINT ( 'NONE', #61 ) ;
#282 = ORIENTED_EDGE ( 'NONE', *, *, #240, .F. ) ;
#283 = ORIENTED_EDGE ( 'NONE', *, *, #256, .T. ) ;
#284 = DIRECTION ( 'NONE',  ( -1.000000000000000000, -0.000000000000000000, -0.000000000000000000 ) ) ;
#285 = VECTOR ( 'NONE', #257, 1000.000000000000000 ) ;
#286 = CARTESIAN_POINT ( 'NONE',  ( -1.250000000000000222, 5.000000000000000000, 0.000000000000000000 ) ) ;
#287 = DIRECTION ( 'NONE',  ( 0.000000000000000000, 0.000000000000000000, 1.000000000000000000 ) ) ;
#288 = CALENDAR_DATE ( 2020, 22, 12 ) ;
#289 = PRODUCT ( 'Q-AZHWP-10-488-M', 'Q-AZHWP-10-488-M', '', ( #30 ) ) ;
#290 = CARTESIAN_POINT ( 'NONE',  ( 3.000000000000000000, 0.000000000000000000, 5.000000000000001776 ) ) ;
#291 = CC_DESIGN_APPROVAL ( #208, ( #29 ) ) ;
#292 = CARTESIAN_POINT ( 'NONE',  ( -1.614212418857619014, 1.555301434917138433E-15, -12.69999999999999929 ) ) ;
#293 = COORDINATED_UNIVERSAL_TIME_OFFSET ( 8, 0, .AHEAD. ) ;
#294 = DIRECTION ( 'NONE',  ( 0.000000000000000000, 0.000000000000000000, 1.000000000000000000 ) ) ;
#295 = DATE_TIME_ROLE ( 'classification_date' ) ;
#296 = CARTESIAN_POINT ( 'NONE',  ( -3.000000000000000000, 1.555301434917138433E-15, -12.69999999999999929 ) ) ;
#297 = EDGE_CURVE ( 'NONE', #23, #125, #259, .T. ) ;
#298 = AXIS2_PLACEMENT_3D ( 'NONE', #134, #207, #32 ) ;
#299 = CYLINDRICAL_SURFACE ( 'NONE', #187, 12.69999999999999929 ) ;
#300 = EDGE_CURVE ( 'NONE', #23, #233, #73, .T. ) ;
#301 = FACE_OUTER_BOUND ( 'NONE', #206, .T. ) ;
#302 = DIRECTION ( 'NONE',  ( -1.000000000000000000, -0.000000000000000000, -0.000000000000000000 ) ) ;
#303 = AXIS2_PLACEMENT_3D ( 'NONE', #58, #287, #162 ) ;
#304 = EDGE_LOOP ( 'NONE', ( #44, #230, #228, #146 ) ) ;
#305 = VERTEX_POINT ( 'NONE', #43 ) ;
#306 = ORIENTED_EDGE ( 'NONE', *, *, #297, .F. ) ;
#307 = CC_DESIGN_PERSON_AND_ORGANIZATION_ASSIGNMENT ( #131, #219, ( #159 ) ) ;
#308 = DIRECTION ( 'NONE',  ( -0.000000000000000000, 0.000000000000000000, 1.000000000000000000 ) ) ;
#309 = DIRECTION ( 'NONE',  ( -1.000000000000000000, -0.000000000000000000, -0.000000000000000000 ) ) ;
#310 = CIRCLE ( 'NONE', #324, 5.000000000000000000 ) ;
#311 = PERSON_AND_ORGANIZATION ( #191, #326 ) ;
#312 = UNCERTAINTY_MEASURE_WITH_UNIT (LENGTH_MEASURE( 1.000000000000000082E-05 ), #252, 'distance_accuracy_value', 'NONE');
#313 = APPROVAL_ROLE ( '' ) ;
#314 = CARTESIAN_POINT ( 'NONE',  ( -1.614212418857619014, 0.000000000000000000, 0.000000000000000000 ) ) ;
#315 = SHAPE_DEFINITION_REPRESENTATION ( #192, #50 ) ;
#316 = DIRECTION ( 'NONE',  ( -1.000000000000000000, -0.000000000000000000, -0.000000000000000000 ) ) ;
#317 = CIRCLE ( 'NONE', #5, 5.000000000000001776 ) ;
#318 = DATE_AND_TIME ( #158, #332 ) ;
#319 = CARTESIAN_POINT ( 'NONE',  ( 3.000000000000000000, 0.000000000000000000, 0.000000000000000000 ) ) ;
#320 = PERSON_AND_ORGANIZATION_ROLE ( 'design_supplier' ) ;
#321 = DIRECTION ( 'NONE',  ( -1.000000000000000000, -0.000000000000000000, -0.000000000000000000 ) ) ;
#322 = DIRECTION ( 'NONE',  ( 0.000000000000000000, 0.000000000000000000, 1.000000000000000000 ) ) ;
#323 = APPROVAL ( #136, 'UNSPECIFIED' ) ;
#324 = AXIS2_PLACEMENT_3D ( 'NONE', #215, #316, #234 ) ;
#325 = CARTESIAN_POINT ( 'NONE',  ( -3.000000000000000000, 0.000000000000000000, 0.000000000000000000 ) ) ;
#326 = ORGANIZATION ( 'UNSPECIFIED', 'UNSPECIFIED', '' ) ;
#327 = ORIENTED_EDGE ( 'NONE', *, *, #111, .F. ) ;
#328 = ORIENTED_EDGE ( 'NONE', *, *, #300, .T. ) ;
#329 = EDGE_CURVE ( 'NONE', #125, #23, #280, .T. ) ;
#330 = CIRCLE ( 'NONE', #211, 12.69999999999999929 ) ;
#331 = DIRECTION ( 'NONE',  ( 0.000000000000000000, 0.000000000000000000, -1.000000000000000000 ) ) ;
#332 = LOCAL_TIME ( 17, 5, 56.00000000000000000, #261 ) ;
#333 = ORIENTED_EDGE ( 'NONE', *, *, #93, .T. ) ;
#334 = FACE_OUTER_BOUND ( 'NONE', #255, .T. ) ;
#335 = APPROVAL_ROLE ( '' ) ;
ENDSEC;
END-ISO-10303-21;
